  0
SECTION
  2
HEADER
  9
$ACADVER
  1
AC1018
  9
$ACADMAINTVER
 70
    39
  9
$DWGCODEPAGE
  3
ANSI_1252
  9
$LASTSAVEDBY
  1
fottrem
  9
$INSBASE
 10
0.0
 20
0.0
 30
0.0
  9
$EXTMIN
 10
15.10005812599484
 20
8.27293947217995
 30
0.0
  9
$EXTMAX
 10
21.6323710433073
 20
18.27254843869651
 30
0.0
  9
$LIMMIN
 10
0.0
 20
0.0
  9
$LIMMAX
 10
12.0
 20
9.0
  9
$ORTHOMODE
 70
     0
  9
$REGENMODE
 70
     1
  9
$FILLMODE
 70
     1
  9
$QTEXTMODE
 70
     0
  9
$MIRRTEXT
 70
     0
  9
$LTSCALE
 40
1.0
  9
$ATTMODE
 70
     1
  9
$TEXTSIZE
 40
0.2
  9
$TRACEWID
 40
0.05
  9
$TEXTSTYLE
  7
Standard
  9
$CLAYER
  8
0
  9
$CELTYPE
  6
ByLayer
  9
$CECOLOR
 62
   256
  9
$CELTSCALE
 40
1.0
  9
$DISPSILH
 70
     0
  9
$DIMSCALE
 40
1.0
  9
$DIMASZ
 40
0.18
  9
$DIMEXO
 40
0.0625
  9
$DIMDLI
 40
0.38
  9
$DIMRND
 40
0.0
  9
$DIMDLE
 40
0.0
  9
$DIMEXE
 40
0.18
  9
$DIMTP
 40
0.0
  9
$DIMTM
 40
0.0
  9
$DIMTXT
 40
0.18
  9
$DIMCEN
 40
0.09
  9
$DIMTSZ
 40
0.0
  9
$DIMTOL
 70
     0
  9
$DIMLIM
 70
     0
  9
$DIMTIH
 70
     1
  9
$DIMTOH
 70
     1
  9
$DIMSE1
 70
     0
  9
$DIMSE2
 70
     0
  9
$DIMTAD
 70
     0
  9
$DIMZIN
 70
     0
  9
$DIMBLK
  1

  9
$DIMASO
 70
     1
  9
$DIMSHO
 70
     1
  9
$DIMPOST
  1

  9
$DIMAPOST
  1

  9
$DIMALT
 70
     0
  9
$DIMALTD
 70
     2
  9
$DIMALTF
 40
25.4
  9
$DIMLFAC
 40
1.0
  9
$DIMTOFL
 70
     0
  9
$DIMTVP
 40
0.0
  9
$DIMTIX
 70
     0
  9
$DIMSOXD
 70
     0
  9
$DIMSAH
 70
     0
  9
$DIMBLK1
  1

  9
$DIMBLK2
  1

  9
$DIMSTYLE
  2
Standard
  9
$DIMCLRD
 70
     0
  9
$DIMCLRE
 70
     0
  9
$DIMCLRT
 70
     0
  9
$DIMTFAC
 40
1.0
  9
$DIMGAP
 40
0.09
  9
$DIMJUST
 70
     0
  9
$DIMSD1
 70
     0
  9
$DIMSD2
 70
     0
  9
$DIMTOLJ
 70
     1
  9
$DIMTZIN
 70
     0
  9
$DIMALTZ
 70
     0
  9
$DIMALTTZ
 70
     0
  9
$DIMUPT
 70
     0
  9
$DIMDEC
 70
     4
  9
$DIMTDEC
 70
     4
  9
$DIMALTU
 70
     2
  9
$DIMALTTD
 70
     2
  9
$DIMTXSTY
  7
Standard
  9
$DIMAUNIT
 70
     0
  9
$DIMADEC
 70
     0
  9
$DIMALTRND
 40
0.0
  9
$DIMAZIN
 70
     0
  9
$DIMDSEP
 70
    46
  9
$DIMATFIT
 70
     3
  9
$DIMFRAC
 70
     0
  9
$DIMLDRBLK
  1

  9
$DIMLUNIT
 70
     2
  9
$DIMLWD
 70
    -2
  9
$DIMLWE
 70
    -2
  9
$DIMTMOVE
 70
     0
  9
$LUNITS
 70
     2
  9
$LUPREC
 70
     4
  9
$SKETCHINC
 40
0.1
  9
$FILLETRAD
 40
0.0
  9
$AUNITS
 70
     0
  9
$AUPREC
 70
     0
  9
$MENU
  1
.
  9
$ELEVATION
 40
0.0
  9
$PELEVATION
 40
0.0
  9
$THICKNESS
 40
0.0
  9
$LIMCHECK
 70
     0
  9
$CHAMFERA
 40
0.0
  9
$CHAMFERB
 40
0.0
  9
$CHAMFERC
 40
0.0
  9
$CHAMFERD
 40
0.0
  9
$SKPOLY
 70
     0
  9
$TDCREATE
 40
2453354.092125822
  9
$TDUCREATE
 40
2453353.717125822
  9
$TDUPDATE
 40
2454792.438963878
  9
$TDUUPDATE
 40
2454792.063963878
  9
$TDINDWG
 40
0.050243044
  9
$TDUSRTIMER
 40
0.0502193056
  9
$USRTIMER
 70
     1
  9
$ANGBASE
 50
0.0
  9
$ANGDIR
 70
     0
  9
$PDMODE
 70
     0
  9
$PDSIZE
 40
0.0
  9
$PLINEWID
 40
0.0
  9
$SPLFRAME
 70
     0
  9
$SPLINETYPE
 70
     6
  9
$SPLINESEGS
 70
     8
  9
$HANDSEED
  5
321
  9
$SURFTAB1
 70
     6
  9
$SURFTAB2
 70
     6
  9
$SURFTYPE
 70
     6
  9
$SURFU
 70
     6
  9
$SURFV
 70
     6
  9
$UCSBASE
  2

  9
$UCSNAME
  2

  9
$UCSORG
 10
0.0
 20
0.0
 30
0.0
  9
$UCSXDIR
 10
1.0
 20
0.0
 30
0.0
  9
$UCSYDIR
 10
0.0
 20
1.0
 30
0.0
  9
$UCSORTHOREF
  2

  9
$UCSORTHOVIEW
 70
     0
  9
$UCSORGTOP
 10
0.0
 20
0.0
 30
0.0
  9
$UCSORGBOTTOM
 10
0.0
 20
0.0
 30
0.0
  9
$UCSORGLEFT
 10
0.0
 20
0.0
 30
0.0
  9
$UCSORGRIGHT
 10
0.0
 20
0.0
 30
0.0
  9
$UCSORGFRONT
 10
0.0
 20
0.0
 30
0.0
  9
$UCSORGBACK
 10
0.0
 20
0.0
 30
0.0
  9
$PUCSBASE
  2

  9
$PUCSNAME
  2

  9
$PUCSORG
 10
0.0
 20
0.0
 30
0.0
  9
$PUCSXDIR
 10
1.0
 20
0.0
 30
0.0
  9
$PUCSYDIR
 10
0.0
 20
1.0
 30
0.0
  9
$PUCSORTHOREF
  2

  9
$PUCSORTHOVIEW
 70
     0
  9
$PUCSORGTOP
 10
0.0
 20
0.0
 30
0.0
  9
$PUCSORGBOTTOM
 10
0.0
 20
0.0
 30
0.0
  9
$PUCSORGLEFT
 10
0.0
 20
0.0
 30
0.0
  9
$PUCSORGRIGHT
 10
0.0
 20
0.0
 30
0.0
  9
$PUCSORGFRONT
 10
0.0
 20
0.0
 30
0.0
  9
$PUCSORGBACK
 10
0.0
 20
0.0
 30
0.0
  9
$USERI1
 70
     0
  9
$USERI2
 70
     0
  9
$USERI3
 70
     0
  9
$USERI4
 70
     0
  9
$USERI5
 70
     0
  9
$USERR1
 40
0.0
  9
$USERR2
 40
0.0
  9
$USERR3
 40
0.0
  9
$USERR4
 40
0.0
  9
$USERR5
 40
0.0
  9
$WORLDVIEW
 70
     1
  9
$SHADEDGE
 70
     3
  9
$SHADEDIF
 70
    70
  9
$TILEMODE
 70
     1
  9
$MAXACTVP
 70
    64
  9
$PINSBASE
 10
0.0
 20
0.0
 30
0.0
  9
$PLIMCHECK
 70
     0
  9
$PEXTMIN
 10
0.0
 20
0.0
 30
0.0
  9
$PEXTMAX
 10
0.0
 20
0.0
 30
0.0
  9
$PLIMMIN
 10
0.0
 20
0.0
  9
$PLIMMAX
 10
12.0
 20
9.0
  9
$UNITMODE
 70
     0
  9
$VISRETAIN
 70
     1
  9
$PLINEGEN
 70
     0
  9
$PSLTSCALE
 70
     1
  9
$TREEDEPTH
 70
  3020
  9
$CMLSTYLE
  2
Standard
  9
$CMLJUST
 70
     0
  9
$CMLSCALE
 40
1.0
  9
$PROXYGRAPHICS
 70
     1
  9
$MEASUREMENT
 70
     0
  9
$CELWEIGHT
370
    -1
  9
$ENDCAPS
280
     0
  9
$JOINSTYLE
280
     0
  9
$LWDISPLAY
290
     0
  9
$INSUNITS
 70
     1
  9
$HYPERLINKBASE
  1

  9
$STYLESHEET
  1

  9
$XEDIT
290
     0
  9
$CEPSNTYPE
380
     0
  9
$PSTYLEMODE
290
     0
  9
$FINGERPRINTGUID
  2
{8BAE0D3F-6380-4E3D-B0D1-267E31F469C1}
  9
$VERSIONGUID
  2
{6F1AD05E-3764-4268-ADD0-261F181DCA83}
  9
$EXTNAMES
290
     1
  9
$PSVPSCALE
 40
0.0
  9
$OLESTARTUP
290
     0
  9
$SORTENTS
280
   127
  9
$INDEXCTL
280
     0
  9
$HIDETEXT
280
     1
  9
$XCLIPFRAME
290
     0
  9
$HALOGAP
280
     0
  9
$OBSCOLOR
 70
   257
  9
$OBSLTYPE
280
     0
  9
$INTERSECTIONDISPLAY
280
     0
  9
$INTERSECTIONCOLOR
 70
   257
  9
$DIMASSOC
280
     2
  9
$PROJECTNAME
  1

  0
ENDSEC
  0
SECTION
  2
CLASSES
  0
CLASS
  1
ACDBDICTIONARYWDFLT
  2
AcDbDictionaryWithDefault
  3
ObjectDBX Classes
 90
        0
 91
        3
280
     0
281
     0
  0
CLASS
  1
ACDBPLACEHOLDER
  2
AcDbPlaceHolder
  3
ObjectDBX Classes
 90
        0
 91
        1
280
     0
281
     0
  0
CLASS
  1
LAYOUT
  2
AcDbLayout
  3
ObjectDBX Classes
 90
        0
 91
        1
280
     0
281
     0
  0
CLASS
  1
DICTIONARYVAR
  2
AcDbDictionaryVar
  3
ObjectDBX Classes
 90
        0
 91
        3
280
     0
281
     0
  0
CLASS
  1
TABLESTYLE
  2
AcDbTableStyle
  3
ObjectDBX Classes
 90
     2047
 91
        3
280
     0
281
     0
  0
ENDSEC
  0
SECTION
  2
TABLES
  0
TABLE
  2
VPORT
  5
8
330
0
100
AcDbSymbolTable
 70
     2
  0
VPORT
  5
97
330
8
100
AcDbSymbolTableRecord
100
AcDbViewportTableRecord
  2
*Active
 70
     0
 10
0.0
 20
0.0
 11
1.0
 21
1.0
 12
22.90118355406111
 22
10.41571437559034
 13
0.0
 23
0.0
 14
0.5
 24
0.5
 15
0.5
 25
0.5
 16
0.0
 26
0.0
 36
1.0
 17
0.0
 27
0.0
 37
0.0
 40
18.19834239705067
 41
2.031468531468532
 42
50.0
 43
0.0
 44
0.0
 50
0.0
 51
0.0
 71
    16
 72
  1000
 73
     1
 74
     1
 75
     0
 76
     0
 77
     0
 78
     0
281
     0
 65
     0
110
0.0
120
0.0
130
0.0
111
1.0
121
0.0
131
0.0
112
0.0
122
1.0
132
0.0
 79
     0
146
0.0
  0
ENDTAB
  0
TABLE
  2
LTYPE
  5
5
330
0
100
AcDbSymbolTable
 70
     1
  0
LTYPE
  5
14
330
5
100
AcDbSymbolTableRecord
100
AcDbLinetypeTableRecord
  2
ByBlock
 70
     0
  3

 72
    65
 73
     0
 40
0.0
  0
LTYPE
  5
15
330
5
100
AcDbSymbolTableRecord
100
AcDbLinetypeTableRecord
  2
ByLayer
 70
     0
  3

 72
    65
 73
     0
 40
0.0
  0
LTYPE
  5
16
330
5
100
AcDbSymbolTableRecord
100
AcDbLinetypeTableRecord
  2
Continuous
 70
     0
  3
Solid line
 72
    65
 73
     0
 40
0.0
  0
ENDTAB
  0
TABLE
  2
LAYER
  5
2
330
0
100
AcDbSymbolTable
 70
     2
  0
LAYER
  5
10
330
2
100
AcDbSymbolTableRecord
100
AcDbLayerTableRecord
  2
0
 70
     0
 62
     7
  6
Continuous
370
    -3
390
F
  0
LAYER
  5
25B
330
2
100
AcDbSymbolTableRecord
100
AcDbLayerTableRecord
  2
DEFPOINTS
 70
     0
 62
     7
  6
Continuous
290
     0
370
    -3
390
F
  0
ENDTAB
  0
TABLE
  2
STYLE
  5
3
330
0
100
AcDbSymbolTable
 70
     1
  0
STYLE
  5
11
330
3
100
AcDbSymbolTableRecord
100
AcDbTextStyleTableRecord
  2
Standard
 70
     0
 40
0.0
 41
1.0
 50
0.0
 71
     0
 42
0.2
  3
txt
  4

  0
ENDTAB
  0
TABLE
  2
VIEW
  5
6
330
0
100
AcDbSymbolTable
 70
     0
  0
ENDTAB
  0
TABLE
  2
UCS
  5
7
330
0
100
AcDbSymbolTable
 70
     0
  0
ENDTAB
  0
TABLE
  2
APPID
  5
9
330
0
100
AcDbSymbolTable
 70
     1
  0
APPID
  5
12
330
9
100
AcDbSymbolTableRecord
100
AcDbRegAppTableRecord
  2
ACAD
 70
     0
  0
ENDTAB
  0
TABLE
  2
DIMSTYLE
  5
A
330
0
100
AcDbSymbolTable
 70
     1
100
AcDbDimStyleTable
  0
DIMSTYLE
105
27
330
A
100
AcDbSymbolTableRecord
100
AcDbDimStyleTableRecord
  2
Standard
 70
     0
340
11
  0
ENDTAB
  0
TABLE
  2
BLOCK_RECORD
  5
1
330
0
100
AcDbSymbolTable
 70
     1
  0
BLOCK_RECORD
  5
1F
330
1
100
AcDbSymbolTableRecord
100
AcDbBlockTableRecord
  2
*Model_Space
340
22
  0
BLOCK_RECORD
  5
73
330
1
100
AcDbSymbolTableRecord
100
AcDbBlockTableRecord
  2
*Paper_Space
340
74
  0
BLOCK_RECORD
  5
9B
330
1
100
AcDbSymbolTableRecord
100
AcDbBlockTableRecord
  2
*Paper_Space0
340
9C
  0
ENDTAB
  0
ENDSEC
  0
SECTION
  2
BLOCKS
  0
BLOCK
  5
20
330
1F
100
AcDbEntity
  8
0
100
AcDbBlockBegin
  2
*Model_Space
 70
     0
 71
     0
 10
0.0
 20
0.0
 30
0.0
  3
*Model_Space
  1

  0
ENDBLK
  5
21
330
1F
100
AcDbEntity
  8
0
100
AcDbBlockEnd
  0
BLOCK
  5
75
330
73
100
AcDbEntity
 67
     1
  8
0
100
AcDbBlockBegin
  2
*Paper_Space
 70
     0
 71
     0
 10
0.0
 20
0.0
 30
0.0
  3
*Paper_Space
  1

  0
ENDBLK
  5
76
330
73
100
AcDbEntity
 67
     1
  8
0
100
AcDbBlockEnd
  0
BLOCK
  5
31F
330
9B
100
AcDbEntity
  8
0
100
AcDbBlockBegin
  2
*Paper_Space0
 70
     0
 71
     0
 10
0.0
 20
0.0
 30
0.0
  3
*Paper_Space0
  1

  0
ENDBLK
  5
320
330
9B
100
AcDbEntity
  8
0
100
AcDbBlockEnd
  0
ENDSEC
  0
SECTION
  2
ENTITIES
  0
LINE
  5
1FA
330
1F
100
AcDbEntity
  8
0
  6
Continuous
 62
     7
370
    15
100
AcDbLine
 10
19.37350473983815
 20
14.23680702906775
 30
0.0
 11
19.55242107514866
 21
13.22212206938875
 31
0.0
  0
LINE
  5
1FB
330
1F
100
AcDbEntity
  8
0
  6
Continuous
 62
     7
370
    15
100
AcDbLine
 10
19.55242107514866
 20
13.22212206938875
 30
0.0
 11
21.6323710433073
 21
16.19259847053788
 31
0.0
  0
LINE
  5
1FC
330
1F
100
AcDbEntity
  8
0
  6
Continuous
 62
     7
370
    15
100
AcDbLine
 10
21.6323710433073
 20
16.19259847053788
 30
0.0
 11
18.6618946421582
 21
18.27254843869651
 31
0.0
  0
LINE
  5
1FD
330
1F
100
AcDbEntity
  8
0
  6
Continuous
 62
     7
370
    15
100
AcDbLine
 10
18.6618946421582
 20
18.27254843869651
 30
0.0
 11
18.84081097746871
 21
17.25786347901744
 31
0.0
  0
ARC
  5
1FE
330
1F
100
AcDbEntity
  8
0
  6
Continuous
 62
     7
370
    15
100
AcDbCircle
 10
19.62688997070891
 20
12.79978797587096
 30
0.0
 40
4.526848503690909
100
AcDbArc
 50
99.99999999999994
 51
270.0000000000007
  0
LINE
  5
1FF
330
1F
100
AcDbEntity
  8
0
  6
Continuous
 62
     7
370
    15
100
AcDbLine
 10
19.62688997070891
 20
8.272939472180042
 30
0.0
 11
19.62688997070891
 21
11.340600587468
 31
0.0
  0
ARC
  5
200
330
1F
100
AcDbEntity
  8
0
  6
Continuous
 62
     7
370
    15
100
AcDbCircle
 10
19.62688997070891
 20
12.79978797587096
 30
0.0
 40
1.459187388402925
100
AcDbArc
 50
100.0000000000008
 51
270.0000000000011
  0
LINE
  5
264
330
1F
100
AcDbEntity
  8
0
100
AcDbLine
 10
19.5919702160265
 20
8.27401907635461
 30
0.0
 11
19.62688997070891
 21
8.308938831037013
 31
0.0
  0
LINE
  5
265
330
1F
100
AcDbEntity
  8
0
100
AcDbLine
 10
19.51926471269439
 20
8.276266891828271
 30
0.0
 11
19.62688997070891
 21
8.383892149842788
 31
0.0
  0
LINE
  5
266
330
1F
100
AcDbEntity
  8
0
100
AcDbLine
 10
19.44655920936228
 20
8.27851470730193
 30
0.0
 11
19.62688997070891
 21
8.458845468648562
 31
0.0
  0
LINE
  5
267
330
1F
100
AcDbEntity
  8
0
100
AcDbLine
 10
19.37385370603016
 20
8.280762522775593
 30
0.0
 11
19.62688997070891
 21
8.533798787454337
 31
0.0
  0
LINE
  5
268
330
1F
100
AcDbEntity
  8
0
100
AcDbLine
 10
19.30376612582624
 20
8.285628261377447
 30
0.0
 11
19.62688997070891
 21
8.60875210626011
 31
0.0
  0
LINE
  5
269
330
1F
100
AcDbEntity
  8
0
100
AcDbLine
 10
19.23518955344162
 20
8.292005007798595
 30
0.0
 11
19.62688997070891
 21
8.683705425065886
 31
0.0
  0
LINE
  5
26A
330
1F
100
AcDbEntity
  8
0
100
AcDbLine
 10
19.166612981057
 20
8.298381754219744
 30
0.0
 11
19.62688997070891
 21
8.75865874387166
 31
0.0
  0
LINE
  5
26B
330
1F
100
AcDbEntity
  8
0
100
AcDbLine
 10
19.09803640867237
 20
8.304758500640892
 30
0.0
 11
19.62688997070891
 21
8.833612062677432
 31
0.0
  0
LINE
  5
26C
330
1F
100
AcDbEntity
  8
0
100
AcDbLine
 10
19.03159006557161
 20
8.313265476345904
 30
0.0
 11
19.62688997070891
 21
8.908565381483207
 31
0.0
  0
LINE
  5
26D
330
1F
100
AcDbEntity
  8
0
100
AcDbLine
 10
18.96673900864827
 20
8.323367738228336
 30
0.0
 11
19.62688997070891
 21
8.98351870028898
 31
0.0
  0
LINE
  5
26E
330
1F
100
AcDbEntity
  8
0
100
AcDbLine
 10
18.90188795172493
 20
8.333470000110772
 30
0.0
 11
19.62688997070891
 21
9.058472019094754
 31
0.0
  0
LINE
  5
26F
330
1F
100
AcDbEntity
  8
0
100
AcDbLine
 10
18.83703689480159
 20
8.343572261993206
 30
0.0
 11
19.62688997070891
 21
9.13342533790053
 31
0.0
  0
LINE
  5
270
330
1F
100
AcDbEntity
  8
0
100
AcDbLine
 10
18.77323763836207
 20
8.354726324359454
 30
0.0
 11
19.62688997070891
 21
9.208378656706303
 31
0.0
  0
LINE
  5
271
330
1F
100
AcDbEntity
  8
0
100
AcDbLine
 10
18.71178981514882
 20
8.36823181995198
 30
0.0
 11
19.62688997070892
 21
9.283331975512079
 31
0.0
  0
LINE
  5
272
330
1F
100
AcDbEntity
  8
0
100
AcDbLine
 10
18.65034199193557
 20
8.381737315544505
 30
0.0
 11
19.62688997070892
 21
9.358285294317852
 31
0.0
  0
LINE
  5
273
330
1F
100
AcDbEntity
  8
0
100
AcDbLine
 10
18.58889416872232
 20
8.395242811137035
 30
0.0
 11
19.62688997070892
 21
9.433238613123628
 31
0.0
  0
LINE
  5
274
330
1F
100
AcDbEntity
  8
0
100
AcDbLine
 10
18.52744634550908
 20
8.40874830672956
 30
0.0
 11
19.62688997070892
 21
9.508191931929401
 31
0.0
  0
LINE
  5
275
330
1F
100
AcDbEntity
  8
0
100
AcDbLine
 10
18.46870906113814
 20
8.424964341164396
 30
0.0
 11
19.62688997070892
 21
9.583145250735177
 31
0.0
  0
LINE
  5
276
330
1F
100
AcDbEntity
  8
0
100
AcDbLine
 10
18.41040527622003
 20
8.441613875052067
 30
0.0
 11
19.62688997070892
 21
9.65809856954095
 31
0.0
  0
LINE
  5
277
330
1F
100
AcDbEntity
  8
0
100
AcDbLine
 10
18.35210149130193
 20
8.45826340893974
 30
0.0
 11
19.62688997070892
 21
9.733051888346722
 31
0.0
  0
LINE
  5
278
330
1F
100
AcDbEntity
  8
0
100
AcDbLine
 10
18.29379770638383
 20
8.47491294282741
 30
0.0
 11
19.62688997070892
 21
9.8080052071525
 31
0.0
  0
LINE
  5
279
330
1F
100
AcDbEntity
  8
0
100
AcDbLine
 10
18.23622168147226
 20
8.492290236721612
 30
0.0
 11
19.62688997070892
 21
9.882958525958273
 31
0.0
  0
LINE
  5
27A
330
1F
100
AcDbEntity
  8
0
100
AcDbLine
 10
18.18085284249037
 20
8.5118747165455
 30
0.0
 11
19.62688997070892
 21
9.957911844764048
 31
0.0
  0
LINE
  5
27B
330
1F
100
AcDbEntity
  8
0
100
AcDbLine
 10
18.12548400350849
 20
8.531459196369386
 30
0.0
 11
19.62688997070892
 21
10.03286516356982
 31
0.0
  0
LINE
  5
27C
330
1F
100
AcDbEntity
  8
0
100
AcDbLine
 10
18.0701151645266
 20
8.551043676193276
 30
0.0
 11
19.62688997070892
 21
10.1078184823756
 31
0.0
  0
LINE
  5
27D
330
1F
100
AcDbEntity
  8
0
100
AcDbLine
 10
18.01474632554472
 20
8.570628156017166
 30
0.0
 11
19.62688997070892
 21
10.18277180118137
 31
0.0
  0
LINE
  5
27E
330
1F
100
AcDbEntity
  8
0
100
AcDbLine
 10
17.96071705393093
 20
8.591552203209153
 30
0.0
 11
19.62688997070892
 21
10.25772511998714
 31
0.0
  0
LINE
  5
27F
330
1F
100
AcDbEntity
  8
0
100
AcDbLine
 10
17.90811469025938
 20
8.613903158343376
 30
0.0
 11
19.62688997070892
 21
10.33267843879292
 31
0.0
  0
LINE
  5
280
330
1F
100
AcDbEntity
  8
0
100
AcDbLine
 10
17.85551232658783
 20
8.636254113477595
 30
0.0
 11
19.62688997070893
 21
10.4076317575987
 31
0.0
  0
LINE
  5
281
330
1F
100
AcDbEntity
  8
0
100
AcDbLine
 10
17.80290996291627
 20
8.658605068611816
 30
0.0
 11
19.62688997070892
 21
10.48258507640447
 31
0.0
  0
LINE
  5
282
330
1F
100
AcDbEntity
  8
0
100
AcDbLine
 10
17.75030759924472
 20
8.680956023746038
 30
0.0
 11
19.62688997070893
 21
10.55753839521024
 31
0.0
  0
LINE
  5
283
330
1F
100
AcDbEntity
  8
0
100
AcDbLine
 10
17.69925544669072
 20
8.704857189997806
 30
0.0
 11
19.62688997070893
 21
10.63249171401601
 31
0.0
  0
LINE
  5
284
330
1F
100
AcDbEntity
  8
0
100
AcDbLine
 10
17.64928471334577
 20
8.729839775458633
 30
0.0
 11
19.62688997070893
 21
10.70744503282179
 31
0.0
  0
LINE
  5
285
330
1F
100
AcDbEntity
  8
0
100
AcDbLine
 10
17.59931398000082
 20
8.754822360919459
 30
0.0
 11
19.62688997070893
 21
10.78239835162756
 31
0.0
  0
LINE
  5
286
330
1F
100
AcDbEntity
  8
0
100
AcDbLine
 10
17.54934324665588
 20
8.779804946380287
 30
0.0
 11
19.62688997070893
 21
10.85735167043334
 31
0.0
  0
LINE
  5
287
330
1F
100
AcDbEntity
  8
0
100
AcDbLine
 10
17.49937251331093
 20
8.804787531841113
 30
0.0
 11
19.62688997070893
 21
10.93230498923911
 31
0.0
  0
LINE
  5
288
330
1F
100
AcDbEntity
  8
0
100
AcDbLine
 10
17.45086950225225
 20
8.831237839588207
 30
0.0
 11
19.62688997070893
 21
11.00725830804489
 31
0.0
  0
LINE
  5
289
330
1F
100
AcDbEntity
  8
0
100
AcDbLine
 10
17.40342399307636
 20
8.858745649218093
 30
0.0
 11
19.62688997070893
 21
11.08221162685066
 31
0.0
  0
LINE
  5
28A
330
1F
100
AcDbEntity
  8
0
100
AcDbLine
 10
17.35597848390048
 20
8.886253458847982
 30
0.0
 11
19.62688997070893
 21
11.15716494565644
 31
0.0
  0
LINE
  5
28B
330
1F
100
AcDbEntity
  8
0
100
AcDbLine
 10
17.30853297472459
 20
8.91376126847787
 30
0.0
 11
19.62688997070893
 21
11.23211826446221
 31
0.0
  0
LINE
  5
28C
330
1F
100
AcDbEntity
  8
0
100
AcDbLine
 10
17.26108746554871
 20
8.941269078107757
 30
0.0
 11
19.62688997070893
 21
11.30707158326798
 31
0.0
  0
LINE
  5
28D
330
1F
100
AcDbEntity
  8
0
100
AcDbLine
 10
17.21481433631643
 20
8.969949267681255
 30
0.0
 11
19.58755186757752
 21
11.34268679894234
 31
0.0
  0
LINE
  5
28E
330
1F
100
AcDbEntity
  8
0
100
AcDbLine
 10
17.16981224986074
 20
8.999900500031337
 30
0.0
 11
19.51637334807061
 21
11.34646159824121
 31
0.0
  0
LINE
  5
28F
330
1F
100
AcDbEntity
  8
0
100
AcDbLine
 10
17.12481016340505
 20
9.02985173238142
 30
0.0
 11
19.44772419408517
 21
11.35276576306154
 31
0.0
  0
LINE
  5
290
330
1F
100
AcDbEntity
  8
0
100
AcDbLine
 10
17.07980807694936
 20
9.0598029647315
 30
0.0
 11
19.38312607719476
 21
11.36312096497691
 31
0.0
  0
LINE
  5
291
330
1F
100
AcDbEntity
  8
0
100
AcDbLine
 10
17.03480599049366
 20
9.089754197081582
 30
0.0
 11
19.31865211815157
 21
11.37360032473949
 31
0.0
  0
LINE
  5
292
330
1F
100
AcDbEntity
  8
0
100
AcDbLine
 10
16.99052921296324
 20
9.120430738356928
 30
0.0
 11
19.25969375610393
 21
11.38959528149762
 31
0.0
  0
LINE
  5
293
330
1F
100
AcDbEntity
  8
0
100
AcDbLine
 10
16.9479105599929
 20
9.152765404192369
 30
0.0
 11
19.2007353940563
 21
11.40559023825576
 31
0.0
  0
LINE
  5
294
330
1F
100
AcDbEntity
  8
0
100
AcDbLine
 10
16.90529190702257
 20
9.185100070027808
 30
0.0
 11
19.14423328138193
 21
11.42404144438717
 31
0.0
  0
LINE
  5
295
330
1F
100
AcDbEntity
  8
0
100
AcDbLine
 10
16.86267325405223
 20
9.217434735863245
 30
0.0
 11
19.09026649717912
 21
11.44502797899014
 31
0.0
  0
LINE
  5
296
330
1F
100
AcDbEntity
  8
0
100
AcDbLine
 10
16.8200546010819
 20
9.249769401698686
 30
0.0
 11
19.03629971297632
 21
11.46601451359311
 31
0.0
  0
LINE
  5
297
330
1F
100
AcDbEntity
  8
0
100
AcDbLine
 10
16.77761052315807
 20
9.282278642580627
 30
0.0
 11
18.98607344364262
 21
11.49074156306518
 31
0.0
  0
LINE
  5
298
330
1F
100
AcDbEntity
  8
0
100
AcDbLine
 10
16.73733516436146
 20
9.316956602589794
 30
0.0
 11
18.9366518985331
 21
11.51627333676143
 31
0.0
  0
LINE
  5
299
330
1F
100
AcDbEntity
  8
0
100
AcDbLine
 10
16.69705980556486
 20
9.351634562598962
 30
0.0
 11
18.88741968612115
 21
11.54199444315525
 31
0.0
  0
LINE
  5
29A
330
1F
100
AcDbEntity
  8
0
100
AcDbLine
 10
16.65678444676825
 20
9.386312522608128
 30
0.0
 11
18.84224530427741
 21
11.57177338011729
 31
0.0
  0
LINE
  5
29B
330
1F
100
AcDbEntity
  8
0
100
AcDbLine
 10
16.61650908797164
 20
9.420990482617295
 30
0.0
 11
18.79707092243368
 21
11.60155231707934
 31
0.0
  0
LINE
  5
29C
330
1F
100
AcDbEntity
  8
0
100
AcDbLine
 10
16.57623372917503
 20
9.455668442626461
 30
0.0
 11
18.75266137923163
 21
11.63209609268305
 31
0.0
  0
LINE
  5
29D
330
1F
100
AcDbEntity
  8
0
100
AcDbLine
 10
16.53783978278751
 20
9.49222781504472
 30
0.0
 11
18.71155254956278
 21
11.66594058181998
 31
0.0
  0
LINE
  5
29E
330
1F
100
AcDbEntity
  8
0
100
AcDbLine
 10
16.49988615620793
 20
9.529227507270905
 30
0.0
 11
18.67044371989393
 21
11.6997850709569
 31
0.0
  0
LINE
  5
29F
330
1F
100
AcDbEntity
  8
0
100
AcDbLine
 10
16.46193252962834
 20
9.566227199497089
 30
0.0
 11
18.63047248044429
 21
11.73476715031304
 31
0.0
  0
LINE
  5
2A0
330
1F
100
AcDbEntity
  8
0
100
AcDbLine
 10
16.42397890304875
 20
9.603226891723274
 30
0.0
 11
18.59334623719884
 21
11.77259422587337
 31
0.0
  0
LINE
  5
2A1
330
1F
100
AcDbEntity
  8
0
100
AcDbLine
 10
16.38602527646916
 20
9.64022658394946
 30
0.0
 11
18.5562199939534
 21
11.8104213014337
 31
0.0
  0
LINE
  5
2A2
330
1F
100
AcDbEntity
  8
0
100
AcDbLine
 10
16.34930478929233
 20
9.6784594155784
 30
0.0
 11
18.52056897701099
 21
11.84972360329706
 31
0.0
  0
LINE
  5
2A3
330
1F
100
AcDbEntity
  8
0
100
AcDbLine
 10
16.31366924010579
 20
9.717777185197633
 30
0.0
 11
18.4874332497413
 21
11.89154119483315
 31
0.0
  0
LINE
  5
2A4
330
1F
100
AcDbEntity
  8
0
100
AcDbLine
 10
16.27803369091925
 20
9.757094954816871
 30
0.0
 11
18.45429752247161
 21
11.93335878636923
 31
0.0
  0
LINE
  5
2A5
330
1F
100
AcDbEntity
  8
0
100
AcDbLine
 10
16.24239814173271
 20
9.796412724436102
 30
0.0
 11
18.42309625584658
 21
11.97711083854997
 31
0.0
  0
LINE
  5
2A6
330
1F
100
AcDbEntity
  8
0
100
AcDbLine
 10
16.20676259254617
 20
9.835730494055335
 30
0.0
 11
18.39405059956026
 21
12.02301850106942
 31
0.0
  0
LINE
  5
2A7
330
1F
100
AcDbEntity
  8
0
100
AcDbLine
 10
16.1717322896023
 20
9.875653509917239
 30
0.0
 11
18.36500494327393
 21
12.06892616358887
 31
0.0
  0
LINE
  5
2A8
330
1F
100
AcDbEntity
  8
0
100
AcDbLine
 10
19.54729159223966
 20
13.2512128125546
 30
0.0
 11
19.632347235112
 21
13.33626845542693
 31
0.0
  0
LINE
  5
2A9
330
1F
100
AcDbEntity
  8
0
100
AcDbLine
 10
16.13842895743892
 20
9.91730349655963
 30
0.0
 11
18.33865371798393
 21
12.11752825710465
 31
0.0
  0
LINE
  5
2AA
330
1F
100
AcDbEntity
  8
0
100
AcDbLine
 10
19.53605637225759
 20
13.31493091137831
 30
0.0
 11
19.8074112728407
 21
13.58628581196141
 31
0.0
  0
LINE
  5
2AB
330
1F
100
AcDbEntity
  8
0
100
AcDbLine
 10
16.10512562527553
 20
9.95895348320202
 30
0.0
 11
18.31389867022333
 21
12.16772652814982
 31
0.0
  0
LINE
  5
2AC
330
1F
100
AcDbEntity
  8
0
100
AcDbLine
 10
19.52482115227552
 20
13.37864901020201
 30
0.0
 11
19.9824753105694
 21
13.83630316849588
 31
0.0
  0
LINE
  5
2AD
330
1F
100
AcDbEntity
  8
0
100
AcDbLine
 10
16.07182229311215
 20
10.00060346984441
 30
0.0
 11
18.28914362246272
 21
12.21792479919498
 31
0.0
  0
LINE
  5
2AE
330
1F
100
AcDbEntity
  8
0
100
AcDbLine
 10
19.51358593229346
 20
13.44236710902572
 30
0.0
 11
20.15753934829809
 21
14.08632052503035
 31
0.0
  0
LINE
  5
2AF
330
1F
100
AcDbEntity
  8
0
100
AcDbLine
 10
16.03851896094877
 20
10.0422534564868
 30
0.0
 11
18.26838562558612
 21
12.27212012112415
 31
0.0
  0
LINE
  5
2B0
330
1F
100
AcDbEntity
  8
0
100
AcDbLine
 10
19.50235071231139
 20
13.50608520784942
 30
0.0
 11
20.33260338602679
 21
14.33633788156482
 31
0.0
  0
LINE
  5
2B1
330
1F
100
AcDbEntity
  8
0
100
AcDbLine
 10
16.00524668704498
 20
10.08393450138879
 30
0.0
 11
18.24824262563212
 21
12.32693043997593
 31
0.0
  0
LINE
  5
2B2
330
1F
100
AcDbEntity
  8
0
100
AcDbLine
 10
19.49111549232932
 20
13.56980330667313
 30
0.0
 11
20.50766742375549
 21
14.5863552380993
 31
0.0
  0
LINE
  5
2B3
330
1F
100
AcDbEntity
  8
0
100
AcDbLine
 10
15.97430794340533
 20
10.12794907655491
 30
0.0
 11
18.2292190467656
 21
12.38286017991518
 31
0.0
  0
LINE
  5
2B4
330
1F
100
AcDbEntity
  8
0
100
AcDbLine
 10
19.47988027234725
 20
13.63352140549683
 30
0.0
 11
20.68273146148419
 21
14.83637259463377
 31
0.0
  0
LINE
  5
2B5
330
1F
100
AcDbEntity
  8
0
100
AcDbLine
 10
15.94336919976566
 20
10.17196365172101
 30
0.0
 11
18.21416536022713
 21
12.44275981218249
 31
0.0
  0
LINE
  5
2B6
330
1F
100
AcDbEntity
  8
0
100
AcDbLine
 10
19.46864505236518
 20
13.69723950432054
 30
0.0
 11
20.85779549921289
 21
15.08638995116825
 31
0.0
  0
LINE
  5
2B7
330
1F
100
AcDbEntity
  8
0
100
AcDbLine
 10
15.912430456126
 20
10.21597822688713
 30
0.0
 11
18.19911167368867
 21
12.5026594444498
 31
0.0
  0
LINE
  5
2B8
330
1F
100
AcDbEntity
  8
0
100
AcDbLine
 10
19.45740983238311
 20
13.76095760314424
 30
0.0
 11
21.03285953694159
 21
15.33640730770272
 31
0.0
  0
LINE
  5
2B9
330
1F
100
AcDbEntity
  8
0
100
AcDbLine
 10
15.88149171248634
 20
10.25999280205324
 30
0.0
 11
18.18820638251422
 21
12.56670747208113
 31
0.0
  0
LINE
  5
2BA
330
1F
100
AcDbEntity
  8
0
100
AcDbLine
 10
19.44617461240104
 20
13.82467570196794
 30
0.0
 11
21.20792357467029
 21
15.58642466423719
 31
0.0
  0
LINE
  5
2BB
330
1F
100
AcDbEntity
  8
0
100
AcDbLine
 10
15.85055296884667
 20
10.30400737721935
 30
0.0
 11
18.17893380332891
 21
12.63238821170158
 31
0.0
  0
LINE
  5
2BC
330
1F
100
AcDbEntity
  8
0
100
AcDbLine
 10
19.43493939241898
 20
13.88839380079165
 30
0.0
 11
21.38298761239899
 21
15.83644202077167
 31
0.0
  0
LINE
  5
2BD
330
1F
100
AcDbEntity
  8
0
100
AcDbLine
 10
15.82157827451854
 20
10.34998600169699
 30
0.0
 11
18.17229189819566
 21
12.70069962537411
 31
0.0
  0
LINE
  5
2BE
330
1F
100
AcDbEntity
  8
0
100
AcDbLine
 10
19.42370417243691
 20
13.95211189961535
 30
0.0
 11
21.55805165012769
 21
16.08645937730613
 31
0.0
  0
LINE
  5
2BF
330
1F
100
AcDbEntity
  8
0
100
AcDbLine
 10
15.7930557393352
 20
10.39641678531943
 30
0.0
 11
18.16980648870316
 21
12.77316753468738
 31
0.0
  0
LINE
  5
2C0
330
1F
100
AcDbEntity
  8
0
100
AcDbLine
 10
19.41246895245483
 20
14.01582999843906
 30
0.0
 11
21.60700142354955
 21
16.21036246953377
 31
0.0
  0
LINE
  5
2C1
330
1F
100
AcDbEntity
  8
0
100
AcDbLine
 10
15.76453320415187
 20
10.44284756894187
 30
0.0
 11
18.16944295892554
 21
12.84775732371553
 31
0.0
  0
LINE
  5
2C2
330
1F
100
AcDbEntity
  8
0
100
AcDbLine
 10
19.40123373247276
 20
14.07954809726276
 30
0.0
 11
21.56291661794711
 21
16.24123098273711
 31
0.0
  0
LINE
  5
2C3
330
1F
100
AcDbEntity
  8
0
100
AcDbLine
 10
15.73601066896854
 20
10.48927835256431
 30
0.0
 11
18.17524143866953
 21
12.9285091222653
 31
0.0
  0
LINE
  5
2C4
330
1F
100
AcDbEntity
  8
0
100
AcDbLine
 10
19.3899985124907
 20
14.14326619608646
 30
0.0
 11
21.51883181234468
 21
16.27209949594044
 31
0.0
  0
LINE
  5
2C5
330
1F
100
AcDbEntity
  8
0
100
AcDbLine
 10
15.7074881337852
 20
10.53570913618675
 30
0.0
 11
18.18472088608172
 21
13.01294188848327
 31
0.0
  0
LINE
  5
2C6
330
1F
100
AcDbEntity
  8
0
100
AcDbLine
 10
19.37876329250863
 20
14.20698429491017
 30
0.0
 11
21.47474700674224
 21
16.30296800914378
 31
0.0
  0
LINE
  5
2C7
330
1F
100
AcDbEntity
  8
0
100
AcDbLine
 10
15.68065437719768
 20
10.583828698405
 30
0.0
 11
18.20112306368594
 21
13.10429738489326
 31
0.0
  0
LINE
  5
2C8
330
1F
100
AcDbEntity
  8
0
100
AcDbLine
 10
19.32162013234808
 20
14.2247944535554
 30
0.0
 11
21.4306622011398
 21
16.33383652234711
 31
0.0
  0
LINE
  5
2C9
330
1F
100
AcDbEntity
  8
0
100
AcDbLine
 10
15.65462058344737
 20
10.63274822346046
 30
0.0
 11
18.22736785696578
 21
13.20549549697887
 31
0.0
  0
LINE
  5
2CA
330
1F
100
AcDbEntity
  8
0
100
AcDbLine
 10
19.22408500977171
 20
14.2022126497848
 30
0.0
 11
21.38657739553736
 21
16.36470503555045
 31
0.0
  0
LINE
  5
2CB
330
1F
100
AcDbEntity
  8
0
100
AcDbLine
 10
15.62858678969706
 20
10.68166774851593
 30
0.0
 11
18.26417385474597
 21
13.31725481356483
 31
0.0
  0
LINE
  5
2CC
330
1F
100
AcDbEntity
  8
0
100
AcDbLine
 10
19.10960587387028
 20
14.16268683268915
 30
0.0
 11
21.34249258993493
 21
16.39557354875379
 31
0.0
  0
LINE
  5
2CD
330
1F
100
AcDbEntity
  8
0
100
AcDbLine
 10
15.60255299594675
 20
10.73058727357139
 30
0.0
 11
18.3219599199311
 21
13.44999419755574
 31
0.0
  0
LINE
  5
2CE
330
1F
100
AcDbEntity
  8
0
100
AcDbLine
 10
18.97579064763164
 20
14.10382492525628
 30
0.0
 11
21.29840778433249
 21
16.42644206195713
 31
0.0
  0
LINE
  5
2CF
330
1F
100
AcDbEntity
  8
0
100
AcDbLine
 10
15.57651920219644
 20
10.77950679862685
 30
0.0
 11
18.43453374417134
 21
13.63752134060175
 31
0.0
  0
LINE
  5
2D0
330
1F
100
AcDbEntity
  8
0
100
AcDbLine
 10
18.79453540611989
 20
13.9975230025503
 30
0.0
 11
21.25432297873005
 21
16.45731057516046
 31
0.0
  0
LINE
  5
2D1
330
1F
100
AcDbEntity
  8
0
100
AcDbLine
 10
15.55211334431202
 20
10.8300542595482
 30
0.0
 11
21.21023817312761
 21
16.4881790883638
 31
0.0
  0
LINE
  5
2D2
330
1F
100
AcDbEntity
  8
0
100
AcDbLine
 10
15.52866416760923
 20
10.88155840165119
 30
0.0
 11
21.16615336752518
 21
16.51904760156713
 31
0.0
  0
LINE
  5
2D3
330
1F
100
AcDbEntity
  8
0
100
AcDbLine
 10
15.50521499090645
 20
10.93306254375418
 30
0.0
 11
21.12206856192274
 21
16.54991611477047
 31
0.0
  0
LINE
  5
2D4
330
1F
100
AcDbEntity
  8
0
100
AcDbLine
 10
15.48176581420367
 20
10.98456668585717
 30
0.0
 11
21.0779837563203
 21
16.58078462797381
 31
0.0
  0
LINE
  5
2D5
330
1F
100
AcDbEntity
  8
0
100
AcDbLine
 10
15.45831663750088
 20
11.03607082796016
 30
0.0
 11
21.03389895071786
 21
16.61165314117714
 31
0.0
  0
LINE
  5
2D6
330
1F
100
AcDbEntity
  8
0
100
AcDbLine
 10
15.43672464459925
 20
11.0894321538643
 30
0.0
 11
20.98981414511542
 21
16.64252165438048
 31
0.0
  0
LINE
  5
2D7
330
1F
100
AcDbEntity
  8
0
100
AcDbLine
 10
15.41598267722894
 20
11.14364350529977
 30
0.0
 11
20.94572933951299
 21
16.67339016758381
 31
0.0
  0
LINE
  5
2D8
330
1F
100
AcDbEntity
  8
0
100
AcDbLine
 10
15.39524070985864
 20
11.19785485673524
 30
0.0
 11
20.90164453391055
 21
16.70425868078715
 31
0.0
  0
LINE
  5
2D9
330
1F
100
AcDbEntity
  8
0
100
AcDbLine
 10
15.37449874248834
 20
11.25206620817071
 30
0.0
 11
20.85755972830811
 21
16.73512719399049
 31
0.0
  0
LINE
  5
2DA
330
1F
100
AcDbEntity
  8
0
100
AcDbLine
 10
15.35375677511804
 20
11.30627755960619
 30
0.0
 11
20.81347492270567
 21
16.76599570719382
 31
0.0
  0
LINE
  5
2DB
330
1F
100
AcDbEntity
  8
0
100
AcDbLine
 10
15.33549231228452
 20
11.36296641557844
 30
0.0
 11
20.76939011710324
 21
16.79686422039716
 31
0.0
  0
LINE
  5
2DC
330
1F
100
AcDbEntity
  8
0
100
AcDbLine
 10
15.31761144732137
 20
11.42003886942107
 30
0.0
 11
20.7253053115008
 21
16.82773273360049
 31
0.0
  0
LINE
  5
2DD
330
1F
100
AcDbEntity
  8
0
100
AcDbLine
 10
15.29973058235823
 20
11.4771113232637
 30
0.0
 11
20.68122050589836
 21
16.85860124680383
 31
0.0
  0
LINE
  5
2DE
330
1F
100
AcDbEntity
  8
0
100
AcDbLine
 10
15.28184971739508
 20
11.53418377710633
 30
0.0
 11
20.63713570029592
 21
16.88946976000717
 31
0.0
  0
LINE
  5
2DF
330
1F
100
AcDbEntity
  8
0
100
AcDbLine
 10
15.26454273227731
 20
11.59183011079432
 30
0.0
 11
20.59305089469349
 21
16.9203382732105
 31
0.0
  0
LINE
  5
2E0
330
1F
100
AcDbEntity
  8
0
100
AcDbLine
 10
15.24971434742875
 20
11.65195504475154
 30
0.0
 11
20.54896608909105
 21
16.95120678641384
 31
0.0
  0
LINE
  5
2E1
330
1F
100
AcDbEntity
  8
0
100
AcDbLine
 10
15.23488596258019
 20
11.71207997870875
 30
0.0
 11
20.50488128348861
 21
16.98207529961718
 31
0.0
  0
LINE
  5
2E2
330
1F
100
AcDbEntity
  8
0
100
AcDbLine
 10
15.22005757773163
 20
11.77220491266597
 30
0.0
 11
20.46079647788617
 21
17.01294381282051
 31
0.0
  0
LINE
  5
2E3
330
1F
100
AcDbEntity
  8
0
100
AcDbLine
 10
15.20522919288307
 20
11.83232984662318
 30
0.0
 11
20.41671167228373
 21
17.04381232602385
 31
0.0
  0
LINE
  5
2E4
330
1F
100
AcDbEntity
  8
0
100
AcDbLine
 10
15.1926052893708
 20
11.89465926191668
 30
0.0
 11
20.3726268666813
 21
17.07468083922718
 31
0.0
  0
LINE
  5
2E5
330
1F
100
AcDbEntity
  8
0
100
AcDbLine
 10
15.18106660475604
 20
11.9580738961077
 30
0.0
 11
20.32854206107886
 21
17.10554935243052
 31
0.0
  0
LINE
  5
2E6
330
1F
100
AcDbEntity
  8
0
100
AcDbLine
 10
15.16952792014128
 20
12.02148853029872
 30
0.0
 11
20.28445725547642
 21
17.13641786563386
 31
0.0
  0
LINE
  5
2E7
330
1F
100
AcDbEntity
  8
0
100
AcDbLine
 10
15.15798923552653
 20
12.08490316448974
 30
0.0
 11
20.24037244987398
 21
17.16728637883719
 31
0.0
  0
LINE
  5
2E8
330
1F
100
AcDbEntity
  8
0
100
AcDbLine
 10
15.14763159636652
 20
12.14949884413551
 30
0.0
 11
20.19628764427155
 21
17.19815489204053
 31
0.0
  0
LINE
  5
2E9
330
1F
100
AcDbEntity
  8
0
100
AcDbLine
 10
15.13967706368314
 20
12.2164976302579
 30
0.0
 11
20.15220283866911
 21
17.22902340524386
 31
0.0
  0
LINE
  5
2EA
330
1F
100
AcDbEntity
  8
0
100
AcDbLine
 10
15.13172253099976
 20
12.28349641638029
 30
0.0
 11
20.10811803306667
 21
17.2598919184472
 31
0.0
  0
LINE
  5
2EB
330
1F
100
AcDbEntity
  8
0
100
AcDbLine
 10
15.12376799831638
 20
12.35049520250269
 30
0.0
 11
20.06403322746423
 21
17.29076043165054
 31
0.0
  0
LINE
  5
2EC
330
1F
100
AcDbEntity
  8
0
100
AcDbLine
 10
15.11653578020179
 20
12.41821630319387
 30
0.0
 11
20.0199484218618
 21
17.32162894485388
 31
0.0
  0
LINE
  5
2ED
330
1F
100
AcDbEntity
  8
0
100
AcDbLine
 10
15.11253280845207
 20
12.48916665024992
 30
0.0
 11
19.97586361625936
 21
17.35249745805721
 31
0.0
  0
LINE
  5
2EE
330
1F
100
AcDbEntity
  8
0
100
AcDbLine
 10
15.10852983670234
 20
12.56011699730596
 30
0.0
 11
19.93177881065692
 21
17.38336597126055
 31
0.0
  0
LINE
  5
2EF
330
1F
100
AcDbEntity
  8
0
100
AcDbLine
 10
15.10452686495261
 20
12.63106734436201
 30
0.0
 11
19.88769400505448
 21
17.41423448446388
 31
0.0
  0
LINE
  5
2F0
330
1F
100
AcDbEntity
  8
0
100
AcDbLine
 10
15.10160875343515
 20
12.70310255165033
 30
0.0
 11
19.84360919945204
 21
17.44510299766722
 31
0.0
  0
LINE
  5
2F1
330
1F
100
AcDbEntity
  8
0
100
AcDbLine
 10
15.10201980639426
 20
12.77846692341521
 30
0.0
 11
19.79952439384961
 21
17.47597151087055
 31
0.0
  0
LINE
  5
2F2
330
1F
100
AcDbEntity
  8
0
100
AcDbLine
 10
15.10243085935337
 20
12.85383129518009
 30
0.0
 11
19.75543958824717
 21
17.50684002407389
 31
0.0
  0
LINE
  5
2F3
330
1F
100
AcDbEntity
  8
0
100
AcDbLine
 10
15.10284191231247
 20
12.92919566694497
 30
0.0
 11
19.71135478264473
 21
17.53770853727723
 31
0.0
  0
LINE
  5
2F4
330
1F
100
AcDbEntity
  8
0
100
AcDbLine
 10
15.10592225327264
 20
13.00722932671091
 30
0.0
 11
19.66726997704229
 21
17.56857705048056
 31
0.0
  0
LINE
  5
2F5
330
1F
100
AcDbEntity
  8
0
100
AcDbLine
 10
15.11133658525704
 20
13.08759697750109
 30
0.0
 11
19.62318517143985
 21
17.5994455636839
 31
0.0
  0
LINE
  5
2F6
330
1F
100
AcDbEntity
  8
0
100
AcDbLine
 10
15.11675091724144
 20
13.16796462829126
 30
0.0
 11
19.57910036583742
 21
17.63031407688724
 31
0.0
  0
LINE
  5
2F7
330
1F
100
AcDbEntity
  8
0
100
AcDbLine
 10
15.12251218509843
 20
13.24867921495402
 30
0.0
 11
19.53501556023498
 21
17.66118259009058
 31
0.0
  0
LINE
  5
2F8
330
1F
100
AcDbEntity
  8
0
100
AcDbLine
 10
15.1336926396387
 20
13.33481298830007
 30
0.0
 11
19.49093075463254
 21
17.69205110329391
 31
0.0
  0
LINE
  5
2F9
330
1F
100
AcDbEntity
  8
0
100
AcDbLine
 10
15.14487309417897
 20
13.42094676164611
 30
0.0
 11
19.4468459490301
 21
17.72291961649724
 31
0.0
  0
LINE
  5
2FA
330
1F
100
AcDbEntity
  8
0
100
AcDbLine
 10
15.15605354871924
 20
13.50708053499215
 30
0.0
 11
19.40276114342766
 21
17.75378812970058
 31
0.0
  0
LINE
  5
2FB
330
1F
100
AcDbEntity
  8
0
100
AcDbLine
 10
15.17291737648697
 20
13.59889768156566
 30
0.0
 11
18.82953309186547
 21
17.25551339694416
 31
0.0
  0
LINE
  5
2FC
330
1F
100
AcDbEntity
  8
0
100
AcDbLine
 10
18.8394727333694
 20
17.26545303844809
 30
0.0
 11
19.35867633782523
 21
17.78465664290392
 31
0.0
  0
LINE
  5
2FD
330
1F
100
AcDbEntity
  8
0
100
AcDbLine
 10
15.1908716246531
 20
13.69180524853757
 30
0.0
 11
18.73484967368298
 21
17.23578329756744
 31
0.0
  0
LINE
  5
2FE
330
1F
100
AcDbEntity
  8
0
100
AcDbLine
 10
18.82823751338734
 20
17.3291711372718
 30
0.0
 11
19.31459153222279
 21
17.81552515610726
 31
0.0
  0
LINE
  5
2FF
330
1F
100
AcDbEntity
  8
0
100
AcDbLine
 10
15.20882587281925
 20
13.78471281550948
 30
0.0
 11
18.64016625550049
 21
17.21605319819073
 31
0.0
  0
LINE
  5
300
330
1F
100
AcDbEntity
  8
0
100
AcDbLine
 10
18.81700229340527
 20
17.39288923609551
 30
0.0
 11
19.27050672662035
 21
17.84639366931059
 31
0.0
  0
LINE
  5
301
330
1F
100
AcDbEntity
  8
0
100
AcDbLine
 10
15.23396177243824
 20
13.88480203393425
 30
0.0
 11
18.54355177304155
 21
17.19439203453756
 31
0.0
  0
LINE
  5
302
330
1F
100
AcDbEntity
  8
0
100
AcDbLine
 10
18.8057670734232
 20
17.45660733491921
 30
0.0
 11
19.22642192101791
 21
17.87726218251393
 31
0.0
  0
LINE
  5
303
330
1F
100
AcDbEntity
  8
0
100
AcDbLine
 10
15.26005498773532
 20
13.98584856803711
 30
0.0
 11
18.44033821576212
 21
17.16613179606391
 31
0.0
  0
LINE
  5
304
330
1F
100
AcDbEntity
  8
0
100
AcDbLine
 10
18.79453185344113
 20
17.52032543374292
 30
0.0
 11
19.18233711541548
 21
17.90813069571727
 31
0.0
  0
LINE
  5
305
330
1F
100
AcDbEntity
  8
0
100
AcDbLine
 10
15.28817321841053
 20
14.08892011751809
 30
0.0
 11
18.3371246584827
 21
17.13787155759026
 31
0.0
  0
LINE
  5
306
330
1F
100
AcDbEntity
  8
0
100
AcDbLine
 10
18.78329663345906
 20
17.58404353256662
 30
0.0
 11
19.13825230981304
 21
17.9389992089206
 31
0.0
  0
LINE
  5
307
330
1F
100
AcDbEntity
  8
0
100
AcDbLine
 10
15.32431480720957
 20
14.20001502512291
 30
0.0
 11
18.22741963557393
 21
17.10311985348727
 31
0.0
  0
LINE
  5
308
330
1F
100
AcDbEntity
  8
0
100
AcDbLine
 10
18.77206141347699
 20
17.64776163139033
 30
0.0
 11
19.0941675042106
 21
17.96986772212394
 31
0.0
  0
LINE
  5
309
330
1F
100
AcDbEntity
  8
0
100
AcDbLine
 10
15.36045639600861
 20
14.31110993272772
 30
0.0
 11
18.11359823794938
 21
17.06425177466848
 31
0.0
  0
LINE
  5
30A
330
1F
100
AcDbEntity
  8
0
100
AcDbLine
 10
18.76082619349492
 20
17.71147973021403
 30
0.0
 11
19.05008269860816
 21
18.00073623532727
 31
0.0
  0
LINE
  5
30B
330
1F
100
AcDbEntity
  8
0
100
AcDbLine
 10
15.40694798297176
 20
14.43255483849664
 30
0.0
 11
17.99587028043036
 21
17.02147713595524
 31
0.0
  0
LINE
  5
30C
330
1F
100
AcDbEntity
  8
0
100
AcDbLine
 10
18.74959097351286
 20
17.77519782903774
 30
0.0
 11
19.00599789300573
 21
18.03160474853061
 31
0.0
  0
LINE
  5
30D
330
1F
100
AcDbEntity
  8
0
100
AcDbLine
 10
15.45591949609367
 20
14.55647967042433
 30
0.0
 11
17.86838018038803
 21
16.96894035471868
 31
0.0
  0
LINE
  5
30E
330
1F
100
AcDbEntity
  8
0
100
AcDbLine
 10
18.73835575353079
 20
17.83891592786144
 30
0.0
 11
18.96191308740329
 21
18.06247326173395
 31
0.0
  0
LINE
  5
30F
330
1F
100
AcDbEntity
  8
0
100
AcDbLine
 10
15.5169843559569
 20
14.69249784909333
 30
0.0
 11
17.7361536216266
 21
16.91166711476303
 31
0.0
  0
LINE
  5
310
330
1F
100
AcDbEntity
  8
0
100
AcDbLine
 10
18.72712053354872
 20
17.90263402668515
 30
0.0
 11
18.91782828180085
 21
18.09334177493728
 31
0.0
  0
LINE
  5
311
330
1F
100
AcDbEntity
  8
0
100
AcDbLine
 10
15.58305935336584
 20
14.83352616530804
 30
0.0
 11
17.59022130896722
 21
16.84068812090943
 31
0.0
  0
LINE
  5
312
330
1F
100
AcDbEntity
  8
0
100
AcDbLine
 10
18.71588531356665
 20
17.96635212550885
 30
0.0
 11
18.87374347619841
 21
18.12421028814062
 31
0.0
  0
LINE
  5
313
330
1F
100
AcDbEntity
  8
0
100
AcDbLine
 10
15.67113538986278
 20
14.99655552061076
 30
0.0
 11
17.43017575147818
 21
16.75559588222616
 31
0.0
  0
LINE
  5
314
330
1F
100
AcDbEntity
  8
0
100
AcDbLine
 10
18.70465009358458
 20
18.03007022433256
 30
0.0
 11
18.82965867059598
 21
18.15507880134395
 31
0.0
  0
LINE
  5
315
330
1F
100
AcDbEntity
  8
0
100
AcDbLine
 10
15.77710024380465
 20
15.17747369335841
 30
0.0
 11
17.2527419220679
 21
16.65311537162165
 31
0.0
  0
LINE
  5
316
330
1F
100
AcDbEntity
  8
0
100
AcDbLine
 10
18.69341487360251
 20
18.09378832315626
 30
0.0
 11
18.78557386499354
 21
18.18594731454729
 31
0.0
  0
LINE
  5
317
330
1F
100
AcDbEntity
  8
0
100
AcDbLine
 10
15.92084626613809
 20
15.39617303449762
 30
0.0
 11
17.03676772485966
 21
16.51209449321918
 31
0.0
  0
LINE
  5
318
330
1F
100
AcDbEntity
  8
0
100
AcDbLine
 10
18.68217965362044
 20
18.15750642197997
 30
0.0
 11
18.7414890593911
 21
18.21681582775063
 31
0.0
  0
LINE
  5
319
330
1F
100
AcDbEntity
  8
0
100
AcDbLine
 10
16.17100066931569
 20
15.72128075648099
 30
0.0
 11
16.70042379130942
 21
16.25070387847472
 31
0.0
  0
LINE
  5
31A
330
1F
100
AcDbEntity
  8
0
100
AcDbLine
 10
18.67094443363837
 20
18.22122452080367
 30
0.0
 11
18.69740425378866
 21
18.24768434095396
 31
0.0
  0
ENDSEC
  0
SECTION
  2
OBJECTS
  0
DICTIONARY
  5
C
330
0
100
AcDbDictionary
281
     1
  3
ACAD_COLOR
350
6C
  3
ACAD_GROUP
350
D
  3
ACAD_LAYOUT
350
1A
  3
ACAD_MATERIAL
350
6B
  3
ACAD_MLINESTYLE
350
17
  3
ACAD_PLOTSETTINGS
350
19
  3
ACAD_PLOTSTYLENAME
350
E
  3
ACAD_TABLESTYLE
350
92
  3
AcDbVariableDictionary
350
59
  0
DICTIONARY
  5
6C
102
{ACAD_REACTORS
330
C
102
}
330
C
100
AcDbDictionary
281
     1
  0
DICTIONARY
  5
D
102
{ACAD_REACTORS
330
C
102
}
330
C
100
AcDbDictionary
281
     1
  0
DICTIONARY
  5
1A
102
{ACAD_REACTORS
330
C
102
}
330
C
100
AcDbDictionary
281
     1
  3
Layout1
350
74
  3
Layout2
350
9C
  3
Model
350
22
  0
DICTIONARY
  5
6B
102
{ACAD_REACTORS
330
C
102
}
330
C
100
AcDbDictionary
281
     1
  0
DICTIONARY
  5
17
102
{ACAD_REACTORS
330
C
102
}
330
C
100
AcDbDictionary
281
     1
  3
Standard
350
18
  0
DICTIONARY
  5
19
102
{ACAD_REACTORS
330
C
102
}
330
C
100
AcDbDictionary
281
     1
  0
ACDBDICTIONARYWDFLT
  5
E
102
{ACAD_REACTORS
330
C
102
}
330
C
100
AcDbDictionary
281
     1
  3
Normal
350
F
100
AcDbDictionaryWithDefault
340
F
  0
DICTIONARY
  5
92
102
{ACAD_REACTORS
330
C
102
}
330
C
100
AcDbDictionary
281
     1
  0
DICTIONARY
  5
59
102
{ACAD_REACTORS
330
C
102
}
330
C
100
AcDbDictionary
281
     1
  0
LAYOUT
  5
74
102
{ACAD_REACTORS
330
1A
102
}
330
1A
100
AcDbPlotSettings
  1

  2
\\ADSCCNDC1\hq601xrx1
  4

  6

 40
0.0
 41
0.0
 42
0.0
 43
0.0
 44
0.0
 45
0.0
 46
0.0
 47
0.0
 48
0.0
 49
0.0
140
0.0
141
0.0
142
1.0
143
1.0
 70
   688
 72
     0
 73
     0
 74
     5
  7

 75
    16
 76
     0
 77
     2
 78
   300
147
1.0
148
0.0
149
0.0
100
AcDbLayout
  1
Layout1
 70
     1
 71
     1
 10
0.0
 20
0.0
 11
12.0
 21
9.0
 12
0.0
 22
0.0
 32
0.0
 14
0.0
 24
0.0
 34
0.0
 15
0.0
 25
0.0
 35
0.0
146
0.0
 13
0.0
 23
0.0
 33
0.0
 16
1.0
 26
0.0
 36
0.0
 17
0.0
 27
1.0
 37
0.0
 76
     0
330
73
  0
LAYOUT
  5
9C
102
{ACAD_REACTORS
330
1A
102
}
330
1A
100
AcDbPlotSettings
  1

  2
None
  4

  6

 40
0.0
 41
0.0
 42
0.0
 43
0.0
 44
0.0
 45
0.0
 46
0.0
 47
0.0
 48
0.0
 49
0.0
140
0.0
141
0.0
142
1.0
143
1.0
 70
   688
 72
     0
 73
     0
 74
     5
  7

 75
    16
 76
     0
 77
     2
 78
   300
147
1.0
148
0.0
149
0.0
100
AcDbLayout
  1
Layout2
 70
     1
 71
     2
 10
0.0
 20
0.0
 11
12.0
 21
9.0
 12
0.0
 22
0.0
 32
0.0
 14
1.000000000000000E+20
 24
1.000000000000000E+20
 34
1.000000000000000E+20
 15
-1.000000000000000E+20
 25
-1.000000000000000E+20
 35
-1.000000000000000E+20
146
0.0
 13
0.0
 23
0.0
 33
0.0
 16
1.0
 26
0.0
 36
0.0
 17
0.0
 27
1.0
 37
0.0
 76
     0
330
9B
  0
LAYOUT
  5
22
102
{ACAD_REACTORS
330
1A
102
}
330
1A
100
AcDbPlotSettings
  1

  2
none_device
  4
Letter_(8.50_x_11.00_Inches)
  6

 40
6.349999904632568
 41
6.349999904632568
 42
6.350006103515625
 43
6.350006103515625
 44
215.8999938964844
 45
279.3999938964844
 46
0.0
 47
0.0
 48
0.0
 49
0.0
140
0.0
141
0.0
142
1.0
143
3.560208697428377
 70
 11952
 72
     0
 73
     1
 74
     0
  7

 75
     0
 76
     0
 77
     2
 78
   300
147
0.28088241027059
148
0.1311165230791651
149
0.096403374003771
100
AcDbLayout
  1
Model
 70
     1
 71
     0
 10
0.0
 20
0.0
 11
12.0
 21
9.0
 12
0.0
 22
0.0
 32
0.0
 14
15.10005812599484
 24
8.27293947217995
 34
0.0
 15
21.6323710433073
 25
18.27254843869651
 35
0.0
146
0.0
 13
0.0
 23
0.0
 33
0.0
 16
1.0
 26
0.0
 36
0.0
 17
0.0
 27
1.0
 37
0.0
 76
     0
330
1F
  0
MLINESTYLE
  5
18
102
{ACAD_REACTORS
330
17
102
}
330
17
100
AcDbMlineStyle
  2
Standard
 70
     0
  3

 62
   256
 51
90.0
 52
90.0
 71
     2
 49
0.5
 62
   256
  6
BYLAYER
 49
-0.5
 62
   256
  6
BYLAYER
  0
ACDBPLACEHOLDER
  5
F
102
{ACAD_REACTORS
330
E
102
}
330
E
  0
ENDSEC
  0
EOF
